background
Alice Cooper Bass Tablature: Billion Dollar Babies

Billion Dollar Babies

Words and music by
From the album Billion Dollar Babies (1973)
Transcribed by Max (agmnj5lls@punkmusic.com)

This song was hard to figure out and I dont think that the Chorus is right. 
So if you find any mistakes please send me an e-mail. 
You can say this tab sucks or you can say its good I think its good, for a 14 year old 
kid thats been playing 2 years and has never had any lessons except piano, its pretty
good, and also I will be working on the chorus part so in a few days ill will post it.


Intro
Riff 1
| -----------------------------|
| -----------------------------|
| ----5-6-7-----7-8-9-----|
| -----------------------------|


Riff 2
start at the 18 fret and strum down.
| ----------------------------------------------|
| ----------------------------------------------|
| -----18171615141312111098///------------------|
| ----------------------------------------------|


Riff 3
| -------------------------------------------------------------12\---|
| -----------------------------------------------7-------------------|
| ----99-7---9---7s12-10-----10-10-10-------10-------9-8-------------|
| ---------9-------------12------------------------------------------|


Riff 4
| ------------------------------------------------------------------|
| ------------------------------------------------------7-----------|
| ---99-7---9---7s12-10----10--10-10-12--10-12-10--10------9-8------|
| --------9-------------12------------------------------------------|


Riff 5
| --------------------------------------------------------------------------------|
| ------------------------------------------------------------------7--------18---|
| ---99-7---9---7s12-10----10--10-10-12--10-12-10--10------9----------------------|
| --------9-------------12--------------------------------------------------------|


Riff 6
Chorus
(part I had trouble on..please help me on this part!!)
| ----------------------11-9-----------|------------|
| ----------------------------11-9-----|------------| x2
| ----7s12---12------------------------|--7s12-10---|
| -------------------------------------|---------12-|


Riff 7
| ----------------------------------|
| ----------------------------------|
| ----------7-9-10-12-12-14---------|
| ----10-12-------------------------|

Riff 8
Keep struming the 18th fret
| --------------------------------------------------|
| ---------------------18181818181818181818---------|
| ----5-6-7-----------------------------------------|
| --------------------------------------------------|

Riff 4
Play this until the solo is over
| ----------------------------------------------------------------|
| ------------------------------------------------------7---------|
| ---99-7---9---7s12-10----10--10-10-12--10-12-10--10------9-8----|
| --------9-------------12----------------------------------------|

Riff 6
Chorus
| ----------------------11-9-------------------------------|
| ----------------------------11-9-------------------------| x2
| ----7s12---12--------------------------7s12-10-----------|
| -----------------------------------------------12--------|

Riff 7
| -------------------------------------|
| -------------------------------------|
| ----------7-9-10-12-12-14------------|
| ----10-12----------------------------|

The rest of the song is just playing the Riff 7 and Riff 2 just mixed those two up.

End

| --------------------------------|
| -----7/-------13~~~~~~~~~~~~~~~~|
| ---7----------------------------|
| --------------------------------|