background
Alice Cooper Bass Tablature: Be My Lover

Be My Lover

Words and music by Alice Cooper and Michael Bruce
From the album Killer (1972)
Transcribed by Chris T. Fur

Strings: E ,A ,D ,G 


  Verse                                                          
G-------------------------------------------
D--------------------------------------------
A--------------------------------5--5-------
E--5--7--5--3--3--------5--7--8-------------
>                                                                               


Chorus

G------------------------------------------------------------------------------
D-------------------12--12--14--13--------14-----14----------------------------
A-------------------------------------12-----12------10----------------------5-
E--3--3--3--3--3----------------------------------------5--5--3--3--5--5--5---> 
                                                                           
End
G ------------------------------
D-------------------------------
A---5--5--5--5------------------
E ----------------3--3--3--3--3-